  0
SECTION
  2
HEADER
  9
$ACADVER
  1
AC1009
  9
$INSBASE
 10
361.3069466700441
 20
785.2370439401687
 30
0.0
  9
$EXTMIN
 10
319.6251979008316
 20
700.2681127309881
 30
0.0
  9
$EXTMAX
 10
389.8193097352614
 20
855.410684258742
 30
0.0
  9
$LIMMIN
 10
0.0
 20
0.0
  9
$LIMMAX
 10
420.0
 20
297.0
  9
$ORTHOMODE
 70
     0
  9
$REGENMODE
 70
     1
  9
$FILLMODE
 70
     1
  9
$QTEXTMODE
 70
     0
  9
$MIRRTEXT
 70
     0
  9
$DRAGMODE
 70
     2
  9
$LTSCALE
 40
1.0
  9
$OSMODE
 70
    37
  9
$ATTMODE
 70
     2
  9
$TEXTSIZE
 40
0.2
  9
$TRACEWID
 40
0.05
  9
$TEXTSTYLE
  7
STANDARD
  9
$CLAYER
  8
ITEM_50
  9
$CELTYPE
  6
BYLAYER
  9
$CECOLOR
 62
   256
  9
$DIMSCALE
 40
1.0
  9
$DIMASZ
 40
2.5
  9
$DIMEXO
 40
1.0
  9
$DIMDLI
 40
7.0
  9
$DIMRND
 40
0.0
  9
$DIMDLE
 40
0.0
  9
$DIMEXE
 40
2.0
  9
$DIMTP
 40
0.1
  9
$DIMTM
 40
0.1
  9
$DIMTXT
 40
3.5
  9
$DIMCEN
 40
0.0
  9
$DIMTSZ
 40
0.0
  9
$DIMTOL
 70
     0
  9
$DIMLIM
 70
     0
  9
$DIMTIH
 70
     0
  9
$DIMTOH
 70
     0
  9
$DIMSE1
 70
     0
  9
$DIMSE2
 70
     0
  9
$DIMTAD
 70
     1
  9
$DIMZIN
 70
     0
  9
$DIMBLK
  1

  9
$DIMASO
 70
     1
  9
$DIMSHO
 70
     1
  9
$DIMPOST
  1

  9
$DIMAPOST
  1

  9
$DIMALT
 70
     0
  9
$DIMALTD
 70
     2
  9
$DIMALTF
 40
0.0393701
  9
$DIMLFAC
 40
1.0
  9
$DIMTOFL
 70
     1
  9
$DIMTVP
 40
0.0
  9
$DIMTIX
 70
     0
  9
$DIMSOXD
 70
     0
  9
$DIMSAH
 70
     0
  9
$DIMBLK1
  1

  9
$DIMBLK2
  1

  9
$DIMSTYLE
  2
GEN-ISO
  9
$DIMCLRD
 70
   256
  9
$DIMCLRE
 70
   256
  9
$DIMCLRT
 70
     2
  9
$DIMTFAC
 40
0.71
  9
$DIMGAP
 40
0.6
  9
$LUNITS
 70
     2
  9
$LUPREC
 70
     2
  9
$SKETCHINC
 40
0.1
  9
$FILLETRAD
 40
0.8
  9
$AUNITS
 70
     0
  9
$AUPREC
 70
     0
  9
$MENU
  1

  9
$ELEVATION
 40
0.0
  9
$PELEVATION
 40
0.0
  9
$THICKNESS
 40
0.0
  9
$LIMCHECK
 70
     0
  9
$BLIPMODE
 70
     0
  9
$CHAMFERA
 40
2.5
  9
$CHAMFERB
 40
2.5
  9
$SKPOLY
 70
     0
  9
$TDCREATE
 40
2450130.560190393
  9
$TDUPDATE
 40
2450189.499285995
  9
$TDINDWG
 40
0.4401547454
  9
$TDUSRTIMER
 40
0.4401547454
  9
$USRTIMER
 70
     1
  9
$ANGBASE
 50
0.0
  9
$ANGDIR
 70
     0
  9
$PDMODE
 70
     3
  9
$PDSIZE
 40
0.0
  9
$PLINEWID
 40
0.0
  9
$COORDS
 70
     1
  9
$SPLFRAME
 70
     0
  9
$SPLINETYPE
 70
     6
  9
$SPLINESEGS
 70
     8
  9
$ATTDIA
 70
     1
  9
$ATTREQ
 70
     1
  9
$HANDLING
 70
     1
  9
$HANDSEED
  5
2A4
  9
$SURFTAB1
 70
     6
  9
$SURFTAB2
 70
     6
  9
$SURFTYPE
 70
     6
  9
$SURFU
 70
     6
  9
$SURFV
 70
     6
  9
$UCSNAME
  2

  9
$UCSORG
 10
369.0967550390454
 20
776.9775544187334
 30
0.0
  9
$UCSXDIR
 10
1.0
 20
0.0
 30
0.0
  9
$UCSYDIR
 10
0.0
 20
1.0
 30
0.0
  9
$PUCSNAME
  2

  9
$PUCSORG
 10
0.0
 20
0.0
 30
0.0
  9
$PUCSXDIR
 10
1.0
 20
0.0
 30
0.0
  9
$PUCSYDIR
 10
0.0
 20
1.0
 30
0.0
  9
$USERI1
 70
     0
  9
$USERI2
 70
     0
  9
$USERI3
 70
     0
  9
$USERI4
 70
     0
  9
$USERI5
 70
     0
  9
$USERR1
 40
0.0
  9
$USERR2
 40
0.0
  9
$USERR3
 40
0.0
  9
$USERR4
 40
0.0
  9
$USERR5
 40
0.0
  9
$WORLDVIEW
 70
     1
  9
$SHADEDGE
 70
     3
  9
$SHADEDIF
 70
    70
  9
$TILEMODE
 70
     1
  9
$MAXACTVP
 70
    16
  9
$PINSBASE
 10
0.0
 20
0.0
 30
0.0
  9
$PLIMCHECK
 70
     0
  9
$PEXTMIN
 10
1.000000000000000E+20
 20
1.000000000000000E+20
 30
1.000000000000000E+20
  9
$PEXTMAX
 10
-1.000000000000000E+20
 20
-1.000000000000000E+20
 30
-1.000000000000000E+20
  9
$PLIMMIN
 10
0.0
 20
0.0
  9
$PLIMMAX
 10
12.0
 20
9.0
  9
$UNITMODE
 70
     0
  9
$VISRETAIN
 70
     0
  9
$PLINEGEN
 70
     0
  9
$PSLTSCALE
 70
     1
  9
$TREEDEPTH
 70
  3020
  9
$DWGCODEPAGE
  3
dos850
  0
ENDSEC
  0
SECTION
  2
TABLES
  0
TABLE
  2
VPORT
 70
     2
  0
VPORT
  2
*ACTIVE
 70
     0
 10
0.0
 20
0.0
 11
1.0
 21
1.0
 12
354.7222538180465
 22
831.5985363843019
 13
0.0
 23
0.0
 14
1.0
 24
1.0
 15
10.0
 25
10.0
 16
0.0
 26
0.0
 36
1.0
 17
0.0
 27
0.0
 37
0.0
 40
55.02504529393861
 41
1.275675675675675
 42
50.0
 43
0.0
 44
0.0
 50
0.0
 51
0.0
 71
     0
 72
   100
 73
     1
 74
     2
 75
     0
 76
     0
 77
     0
 78
     0
  0
ENDTAB
  0
TABLE
  2
LTYPE
 70
     4
  0
LTYPE
  2
CONTINUOUS
 70
    64
  3
Solid line
 72
    65
 73
     0
 40
0.0
  0
LTYPE
  2
GEN7
 70
    64
  3
____ . ____ . ____ . ____ . ____ . ____ . ____
 72
    65
 73
     4
 40
15.0
 49
10.0
 49
-2.5
 49
0.0
 49
-2.5
  0
LTYPE
  2
GEN
 70
    64
  3
----------------------
 72
    65
 73
     2
 40
10000000000.0
 49
0.0
 49
10000000000.0
  0
LTYPE
  2
GEN7A
 70
    64
  3
__ . __ . __
 72
    65
 73
     4
 40
7.5
 49
5.0
 49
-1.25
 49
0.0
 49
-1.25
  0
ENDTAB
  0
TABLE
  2
LAYER
 70
    12
  0
LAYER
  2
0
 70
    64
 62
     7
  6
CONTINUOUS
  0
LAYER
  2
AIT$HILFE
 70
    64
 62
     3
  6
CONTINUOUS
  0
LAYER
  2
ITEM_50
 70
    64
 62
     7
  6
CONTINUOUS
  0
LAYER
  2
2A
 70
    64
 62
     7
  6
GEN7
  0
LAYER
  2
7
 70
     0
 62
     4
  6
GEN7
  0
LAYER
  2
6
 70
    64
 62
     2
  6
GEN
  0
LAYER
  2
5
 70
     0
 62
     3
  6
GEN
  0
LAYER
  2
4
 70
     0
 62
     3
  6
GEN
  0
LAYER
  2
DEFPOINTS
 70
     0
 62
    -7
  6
GEN
  0
LAYER
  2
7A
 70
    64
 62
     4
  6
GEN7A
  0
LAYER
  2
ITEM_HILFE
 70
    64
 62
     3
  6
CONTINUOUS
  0
LAYER
  2
ITEM_25
 70
    64
 62
     3
  6
CONTINUOUS
  0
ENDTAB
  0
TABLE
  2
STYLE
 70
     3
  0
STYLE
  2
STANDARD
 70
     0
 40
0.0
 41
1.0
 50
0.0
 71
     0
 42
0.2
  3
GENISO.SHX
  4

  0
STYLE
  2
AIT$TSTIL
 70
    64
 40
0.0
 41
0.8
 50
0.0
 71
     0
 42
0.2
  3
iso8
  4

  0
STYLE
  2
GENPRESET
 70
    64
 40
0.0
 41
1.0
 50
0.0
 71
     0
 42
3.5
  3
GENPRESE
  4

  0
ENDTAB
  0
TABLE
  2
VIEW
 70
     0
  0
ENDTAB
  0
TABLE
  2
UCS
 70
     0
  0
ENDTAB
  0
TABLE
  2
APPID
 70
    25
  0
APPID
  2
ACAD
 70
    64
  0
APPID
  2
GENIUS_GENOENT_13
 70
    64
  0
APPID
  2
GENIUS_GENODEF_13
 70
    64
  0
APPID
  2
GENIUS_GENOBJ-N-FIL_13
 70
    64
  0
APPID
  2
GENIUS_GENOLIS_13
 70
    64
  0
APPID
  2
GENIUS_GENOREF_13
 70
    64
  0
APPID
  2
GENIUS_GENOBJ-N-CRS_13
 70
    64
  0
ENDTAB
  0
TABLE
  2
DIMSTYLE
 70
     2
  0
DIMSTYLE
  2
GEN-ISO
 70
     0
  3

  4

  5

  6

  7

 40
1.0
 41
2.5
 42
1.0
 43
7.0
 44
2.0
 45
0.0
 46
0.0
 47
0.1
 48
0.1
140
3.5
141
0.0
142
0.0
143
0.0393701
144
1.0
145
0.0
146
0.71
147
0.6
 71
     0
 72
     0
 73
     0
 74
     0
 75
     0
 76
     0
 77
     1
 78
     8
170
     0
171
     2
172
     1
173
     0
174
     0
175
     0
176
   256
177
   256
178
     2
  0
DIMSTYLE
  2
GENISO
 70
     0
  3

  4

  5

  6
GENAXEH
  7

 40
0.2
 41
2.5
 42
1.0
 43
7.0
 44
2.0
 45
0.0
 46
0.0
 47
0.1
 48
0.1
140
3.5
141
0.0
142
0.0
143
0.0393701
144
1.0
145
0.0
146
0.71
147
0.6
 71
     0
 72
     0
 73
     0
 74
     0
 75
     0
 76
     0
 77
     1
 78
     8
170
     0
171
     2
172
     1
173
     0
174
     0
175
     0
176
   256
177
   256
178
     2
  0
ENDTAB
  0
ENDSEC
  0
SECTION
  2
BLOCKS
  0
BLOCK
  8
0
  5
9D
  2
AIT$MERK
 70
    66
 10
0.0
 20
0.0
 30
0.0
  3
AIT$MERK
  0
ATTDEF
  8
AIT$HILFE
  5
8F
 10
0.8310912943111077
 20
-26.76290463692043
 30
0.0
 40
2.0
  1
ACAD
  3
Hauptmenü
  2
AIT$HAUPTMENUE
 70
     1
 41
0.8
  7
AIT$TSTIL
  0
ATTDEF
  8
AIT$HILFE
  5
90
 10
0.8310912943111077
 20
-23.76290463692043
 30
0.0
 40
2.0
  1
1
  3
Maßstabfaktor
  2
AIT$MASSTABSFAKTOR
 70
     1
 41
0.8
  7
AIT$TSTIL
  0
ATTDEF
  8
AIT$HILFE
  5
91
 10
0.8310912943111077
 20
-20.76290463692043
 30
0.0
 40
2.0
  1
0
  3
Letzte Position
  2
AIT$LETZTE-POSITION
 70
     1
 41
0.8
  7
AIT$TSTIL
  0
ATTDEF
  8
AIT$HILFE
  5
92
 10
0.8310912943111077
 20
-17.76290463692043
 30
0.0
 40
2.0
  1
0
  3
Bem. Nachkomma
  2
AIT$BEM_NACHKOMMA
 70
     1
 41
0.8
  7
AIT$TSTIL
  0
ATTDEF
  8
AIT$HILFE
  5
93
 10
0.8310912943111077
 20
-14.76290463692043
 30
0.0
 40
2.0
  1
0
  3
Pos. neu sort. 0/1
  2
AIT$POSORT
 70
     1
 41
0.8
  7
AIT$TSTIL
  0
ATTDEF
  8
AIT$HILFE
  5
94
 10
0.8310912943111077
 20
-11.76290463692043
 30
0.0
 40
2.0
  1
0
  3
ML3-Stückliste 0/1
  2
AIT$ML3
 70
     1
 41
0.8
  7
AIT$TSTIL
  0
ATTDEF
  8
AIT$HILFE
  5
95
 10
0.8310912943111077
 20
-8.762904636920433
 30
0.0
 40
2.0
  1

  3
Merker-7
  2
AIT$MERKER-7
 70
     1
 41
0.8
  7
AIT$TSTIL
  0
ATTDEF
  8
AIT$HILFE
  5
96
 10
0.8310912943111077
 20
-5.762904636920433
 30
0.0
 40
2.0
  1

  3
Merker-8
  2
AIT$MERKER-8
 70
     1
 41
0.8
  7
AIT$TSTIL
  0
ATTDEF
  8
AIT$HILFE
  5
97
 10
0.8310912943111077
 20
-2.762904636920433
 30
0.0
 40
2.0
  1

  3
Merker-9
  2
AIT$MERKER-9
 70
     1
 41
0.8
  7
AIT$TSTIL
  0
ENDBLK
  8
0
  5
9E
  0
BLOCK
  8
0
  5
9B
  2
GENPRESE
 70
    66
 10
0.0
 20
0.0
 30
0.0
  3
GENPRESE
  0
ATTDEF
  8
0
  5
7A
 10
0.0
 20
0.0
 30
0.0
 40
3.5
  1
A3
  3
PAPER FORMAT
  2
GEN-KO2
 70
     0
  7
GENPRESET
  0
ATTDEF
  8
0
  5
7B
 10
0.0
 20
-5.0
 30
0.0
 40
3.5
  1
item
  3
SCHRIFTKOPF
  2
GEN-KO3
 70
     0
  7
GENPRESET
  0
ATTDEF
  8
0
  5
7C
 10
0.0
 20
-10.0
 30
0.0
 40
3.5
  1
15
  3
ZEITPERIODE SICHERN
  2
GENSI
 70
     0
  7
GENPRESET
  0
ATTDEF
  8
0
  5
7D
 10
0.0
 20
-15.0
 30
0.0
 40
3.5
  1

  3
NAME ZUM SICHERN
  2
GENSD
 70
     0
  7
GENPRESET
  0
ATTDEF
  8
0
  5
7E
 10
0.0679278917532429
 20
-19.93786241836124
 30
0.0
 40
3.5
  1
0
  3
INFOPKT=0/TEXT=1/NO=2
  2
GENIF
 70
     0
  7
GENPRESET
  0
ATTDEF
  8
0
  5
7F
 10
0.0339639458766215
 20
-24.96893120918062
 30
0.0
 40
3.5
  1
2
  3
HORIZ=1/JUSTI=2/KREIS=3
  2
GENPOSVAR
 70
     0
  7
GENPRESET
  0
ATTDEF
  8
0
  5
80
 10
0.0339639458766215
 20
-29.96893120918062
 30
0.0
 40
3.5
  1
0
  3
POSILIN.KREIS=0/PFEIL=1
  2
GENPOSBLK
 70
     0
  7
GENPRESET
  0
ATTDEF
  8
0
  5
81
 10
0.0339639458766215
 20
-34.96893120918062
 30
0.0
 40
3.5
  1
1
  3
INKREMENT POSINR.
  2
GENPOSINC
 70
     0
  7
GENPRESET
  0
ATTDEF
  8
0
  5
82
 10
0.0339639458766215
 20
-39.96893120918062
 30
0.0
 40
3.5
  1
GEN-POS
  3
MASKE POSITIONLISTE
  2
GENPARPOS
 70
     0
  7
GENPRESET
  0
ATTDEF
  8
0
  5
83
 10
0.0339639458766215
 20
-44.96893120918062
 30
0.0
 40
3.5
  1
GEN-SUM
  3
MASKE SUMMENLISTE
  2
GENPARSUM
 70
     0
  7
GENPRESET
  0
ATTDEF
  8
0
  5
84
 10
0.0339639458766215
 20
-49.96893120918062
 30
0.0
 40
3.5
  1
CANONII
  3
STANDARDDRUCKER
  2
GENPARDRU
 70
     0
  7
GENPRESET
  0
ATTDEF
  8
0
  5
85
 10
0.0339639458766215
 20
-54.96893120918062
 30
0.0
 40
3.5
  1

  3
LAYERGRUPPE NORMTEILE
  2
GENSTDLG
 70
     0
  7
GENPRESET
  0
ATTDEF
  8
0
  5
86
 10
0.0339639458766215
 20
-59.96893120918062
 30
0.0
 40
3.5
  1
13
  3
FARBE DIALOG-FELDER
  2
GENCOLBK
 70
     0
  7
GENPRESET
  0
ATTDEF
  8
0
  5
87
 10
0.0339639458766215
 20
-64.96893120918062
 30
0.0
 40
3.5
  1
4
  3
FARBE DIALOG-ÜBERSCHRIFT
  2
GENCOLTI
 70
     0
  7
GENPRESET
  0
ATTDEF
  8
0
  5
88
 10
0.0339639458766215
 20
-69.96893120918062
 30
0.0
 40
3.5
  1
2
  3
FARBE DIALOG-TEXT
  2
GENCOLTX
 70
     0
  7
GENPRESET
  0
ATTDEF
  8
0
  5
89
 10
0.0339639458766215
 20
-74.96893120918062
 30
0.0
 40
3.5
  1
edlin
  3
TEXTEDITOR
  2
GENEDITOR
 70
     0
  7
GENPRESET
  0
ATTDEF
  8
0
  5
8A
 10
0.0339639458766215
 20
-79.96893120918062
 30
0.0
 40
3.5
  1
M
  3
BEM INCH/METRISCH
  2
GENINCH
 70
     0
  7
GENPRESET
  0
ATTDEF
  8
0
  5
8B
 10
0.0339639458766215
 20
-84.96893120918062
 30
0.0
 40
3.5
  1
ISO
  3
SYMBOLE/BEM ISO/ANSI
  2
GENDIMSTIL
 70
     0
  7
GENPRESET
  0
ENDBLK
  8
0
  5
9C
  0
BLOCK
  8
0
  5
77
  2
50013B
 70
     0
 10
0.0
 20
0.0
 30
0.0
  3
50013B
  0
ARC
  8
0
  5
1F
 10
-279.8584647957232
 20
-671.182905732788
 30
0.0
 40
2.0
 50
268.9583733239875
 51
3.018908128920729
  0
ARC
  8
0
  5
20
 10
-295.8967056538672
 20
-671.1855186959065
 30
0.0
 40
2.0
 50
185.2124471909633
 51
271.0416266760117
  0
LINE
  8
0
  5
21
 10
-288.9402958457799
 20
-666.8341951213787
 30
0.0
 11
-287.8057287390345
 21
-666.8341951213789
 31
0.0
  0
ARC
  8
0
  5
22
 10
-289.5578357794514
 20
-647.7665527573834
 30
0.0
 40
2.0
 50
41.98109187108028
 51
136.0416266760109
  0
ARC
  8
0
  5
23
 10
-300.9004322924883
 20
-659.10545398254
 30
0.0
 40
2.0
 50
133.9583733239922
 51
219.7875528090369
  0
LINE
  8
0
  5
24
 10
-302.2887034336568
 20
-657.6657653916987
 30
0.0
 11
-298.855081730298
 21
-654.3547730348883
 31
0.0
  0
ARC
  8
0
  5
25
 10
-298.2997732738305
 20
-654.9306484712249
 30
0.0
 40
0.7999999999999936
 50
44.99999999999788
 51
133.9583733239922
  0
LINE
  8
0
  5
26
 10
-298.2083922104062
 20
-658.1420594976497
 30
0.0
 11
-295.0259776813512
 21
-658.1420594976548
 31
0.0
  0
ARC
  8
0
  5
27
 10
-298.2083892952533
 20
-657.3096478837456
 30
0.0
 40
0.8324116139091871
 50
135.0000000000469
 51
269.9997993469186
  0
LINE
  8
0
  5
28
 10
-297.2996320846219
 20
-655.2236828792471
 30
0.0
 11
-298.7969931921873
 21
-656.7210439868125
 31
0.0
  0
ARC
  8
0
  5
29
 10
-297.5117641189778
 20
-655.011550844891
 30
0.0
 40
0.2999999999999545
 50
314.9999999999999
 51
44.99999999999454
  0
LINE
  8
0
  5
2A
 10
-297.7340878488814
 20
-654.3649630462757
 30
0.0
 11
-297.2996320846219
 21
-654.7994188105352
 31
0.0
  0
ARC
  8
0
  5
2B
 10
-295.0259776813515
 20
-655.1420594976549
 30
0.0
 40
2.999999999999903
 50
270.0000000000038
 51
315.0000000000043
  0
LINE
  8
0
  5
2C
 10
-292.9046573377916
 20
-657.2633798412143
 30
0.0
 11
-292.1023972429008
 21
-656.4611197463235
 31
0.0
  0
ARC
  8
0
  5
2D
 10
-293.4214574915695
 20
-653.5375393078728
 30
0.0
 40
2.999999999999943
 50
314.9999999999956
 51
359.9999999999961
  0
LINE
  8
0
  5
2E
 10
-292.1023972429008
 20
-656.4611197463235
 30
0.0
 11
-291.30013714801
 21
-655.6588596514326
 31
0.0
  0
LINE
  8
0
  5
2F
 10
-294.208743954336
 20
-649.7084352589263
 30
0.0
 11
-290.9975243702928
 21
-646.3782816162149
 31
0.0
  0
ARC
  8
0
  5
30
 10
-293.6328685179994
 20
-650.2637437153938
 30
0.0
 40
0.7999999999999545
 50
136.0416266760077
 51
225.000000000002
  0
LINE
  8
0
  5
31
 10
-293.7640981786891
 20
-651.2638849046024
 30
0.0
 11
-294.1985539429486
 21
-650.8294291403429
 31
0.0
  0
ARC
  8
0
  5
32
 10
-293.5519661443331
 20
-651.0517528702463
 30
0.0
 40
0.3000000000000114
 50
225.0000000000108
 51
314.9999999999999
  0
LINE
  8
0
  5
33
 10
-291.8424730024093
 20
-649.7665237970345
 30
0.0
 11
-293.3398341099771
 21
-651.2638849046023
 31
0.0
  0
ARC
  8
0
  5
34
 10
-291.253869105477
 20
-650.3551276939668
 30
0.0
 40
0.8324116139074118
 50
0.0002006527907827
 51
135.0
  0
LINE
  8
0
  5
35
 10
-290.4214574915695
 20
-653.537539307873
 30
0.0
 11
-290.4214574915746
 21
-650.3551247788182
 31
0.0
  0
LINE
  8
0
  5
36
 10
-284.5498412887296
 20
-667.7128747778191
 30
0.0
 11
-282.2995343946918
 21
-669.9631816718639
 31
0.0
  0
ARC
  8
0
  5
37
 10
-282.888140352942
 20
-670.5517835074714
 30
0.0
 40
0.8324116139074118
 50
269.9999999999999
 51
44.99979934720911
  0
LINE
  8
0
  5
38
 10
-282.888140352942
 20
-671.3841951213787
 30
0.0
 11
-285.0057287390345
 21
-671.3841951213788
 31
0.0
  0
ARC
  8
0
  5
39
 10
-285.0057287390345
 20
-671.6841951213788
 30
0.0
 40
0.3000000000000114
 50
89.99999999999988
 51
179.999999999989
  0
LINE
  8
0
  5
3A
 10
-285.3057287390345
 20
-671.6841951213787
 30
0.0
 11
-285.3057287390345
 21
-672.2986083554457
 31
0.0
  0
ARC
  8
0
  5
3B
 10
-284.5057287390346
 20
-672.2986083554455
 30
0.0
 40
0.7999999999999545
 50
179.9999999999978
 51
268.9583733239923
  0
LINE
  8
0
  5
3C
 10
-284.5202717899686
 20
-673.0984761568162
 30
0.0
 11
-279.8948224230583
 21
-673.1825752362146
 31
0.0
  0
LINE
  8
0
  5
3D
 10
-287.8057287390345
 20
-666.8341951213789
 30
0.0
 11
-286.671161632289
 21
-666.8341951213789
 31
0.0
  0
ARC
  8
0
  5
3E
 10
-286.6711616322889
 20
-669.8341951213786
 30
0.0
 40
2.999999999999943
 50
45.00000000000373
 51
90.0000000000043
  0
ARC
  8
0
  5
3F
 10
-288.9402958457802
 20
-669.8341951213786
 30
0.0
 40
2.999999999999903
 50
89.99999999999565
 51
134.9999999999961
  0
LINE
  8
0
  5
40
 10
-290.3057287390345
 20
-672.2986083554457
 30
0.0
 11
-290.3057287390346
 21
-671.6841951213787
 31
0.0
  0
ARC
  8
0
  5
41
 10
-290.6057287390345
 20
-671.6841951213785
 30
0.0
 40
0.2999999999999545
 50
0.0000000000053557
 51
89.99999999999988
  0
LINE
  8
0
  5
42
 10
-290.6057287390345
 20
-671.3841951213787
 30
0.0
 11
-292.7233171251235
 21
-671.3841951213788
 31
0.0
  0
ARC
  8
0
  5
43
 10
-292.723317125123
 20
-670.5517835074696
 30
0.0
 40
0.8324116139091871
 50
135.0002006530812
 51
269.9999999999531
  0
LINE
  8
0
  5
44
 10
-293.3119230833772
 20
-669.9631816718639
 30
0.0
 11
-291.0616161893395
 21
-667.712874777819
 31
0.0
  0
ARC
  8
0
  5
45
 10
-291.1057287390345
 20
-672.2986083554455
 30
0.0
 40
0.7999999999999936
 50
271.0416266760076
 51
0.0000000000019984
  0
LINE
  8
0
  5
46
 10
-295.8603480265322
 20
-673.1851881993333
 30
0.0
 11
-291.0911856881006
 21
-673.0984761568162
 31
0.0
  0
ARC
  8
0
  5
47
 10
-317.8057287390318
 20
-673.1841951213815
 30
0.0
 40
20.0
 50
5.212447190962912
 51
39.78755280903714
  0
ARC
  8
0
  5
48
 10
-317.8057287390318
 20
-673.1841951213815
 30
0.0
 40
40.0
 50
3.01890812891985
 51
41.98109187108028
  0
CIRCLE
  8
0
  5
49
 10
-290.0893427636931
 20
-661.7036921504287
 30
0.0
 40
2.149999999999999
  0
ARC
  8
0
  5
4A
 10
-290.0893427636931
 20
-661.7036921504287
 30
0.0
 40
4.15
 50
164.257238811024
 51
240.7427611889758
  0
ARC
  8
0
  5
4B
 10
-290.0893427636931
 20
-661.7036921504287
 30
0.0
 40
4.15
 50
340.036854058267
 51
64.96314594172926
  0
LINE
  8
0
  5
4C
 10
-299.5046910704623
 20
-659.9420594976476
 30
0.0
 11
-294.5649190449582
 21
-659.9420594976554
 31
0.0
  0
LINE
  8
0
  5
4D
 10
-288.6214574915632
 20
-657.4906258614059
 30
0.0
 11
-288.6214574915753
 21
-649.9434111305736
 31
0.0
  0
LINE
  8
0
  5
4E
 10
-295.5013370039016
 20
-669.6070111801196
 30
0.0
 11
-292.0083907071577
 21
-666.1140648833646
 31
0.0
  0
LINE
  8
0
  5
4F
 10
-286.0723033912098
 20
-663.6448282630585
 30
0.0
 11
-280.7356166759757
 21
-668.9815149783095
 31
0.0
  0
ARC
  8
0
  5
50
 10
-317.8057287390318
 20
-673.1841951213815
 30
0.0
 40
21.8
 50
10.15235434029826
 51
34.84764565970231
  0
ARC
  8
0
  5
51
 10
-317.8057287390318
 20
-673.1841951213815
 30
0.0
 40
38.2
 50
6.941449665507045
 51
38.05855033449309
  0
ARC
  8
0
  5
52
 10
-288.1214574915753
 20
-649.9434111305728
 30
0.0
 40
0.5
 50
38.05855033449384
 51
180.0000000000912
  0
ARC
  8
0
  5
53
 10
-280.3820632853819
 20
-668.6279615877167
 30
0.0
 40
0.5
 50
224.9999999999124
 51
6.941449665509627
  0
ARC
  8
0
  5
54
 10
-295.8548903944954
 20
-669.2534577895269
 30
0.0
 40
0.5
 50
190.1523543403011
 51
315.0000000000875
  0
ARC
  8
0
  5
55
 10
-299.5046910704631
 20
-660.4420594976475
 30
0.0
 40
0.5
 50
89.9999999999088
 51
214.847645659705
  0
ARC
  8
0
  5
56
 10
-294.564919044959
 20
-660.4420594976554
 30
0.0
 40
0.5
 50
344.2572388110205
 51
89.9999999999088
  0
ARC
  8
0
  5
57
 10
-292.3619440977516
 20
-665.7605114927719
 30
0.0
 40
0.5
 50
315.0000000000875
 51
60.74276118897682
  0
ARC
  8
0
  5
58
 10
-285.718750000616
 20
-663.2912748724658
 30
0.0
 40
0.5
 50
160.0368540582712
 51
224.9999999999124
  0
ARC
  8
0
  5
59
 10
-288.1214574915632
 20
-657.4906258614051
 30
0.0
 40
0.5
 50
180.0000000000912
 51
244.9631459417262
  0
INSERT
  8
0
  5
5A
 66
     1
  2
GENPRESE
 10
-290.0893427636931
 20
-661.7036921504287
 30
0.0
  0
ATTRIB
  8
0
  5
5B
 10
-290.0893427636931
 20
-661.7036921504287
 30
0.0
 40
3.5
  1
A3
  2
GEN-KO2
 70
     0
  7
GENPRESET
  0
ATTRIB
  8
0
  5
5C
 10
-290.0893427636931
 20
-666.7036921504287
 30
0.0
 40
3.5
  1
item
  2
GEN-KO3
 70
     0
  7
GENPRESET
  0
ATTRIB
  8
0
  5
5D
 10
-290.0893427636931
 20
-671.7036921504287
 30
0.0
 40
3.5
  1
15
  2
GENSI
 70
     0
  7
GENPRESET
  0
ATTRIB
  8
0
  5
5E
 10
-290.0893427636931
 20
-676.7036921504287
 30
0.0
 40
3.5
  1

  2
GENSD
 70
     0
  7
GENPRESET
  0
ATTRIB
  8
0
  5
5F
 10
-290.0214148719399
 20
-681.64155456879
 30
0.0
 40
3.5
  1
0
  2
GENIF
 70
     0
  7
GENPRESET
  0
ATTRIB
  8
0
  5
60
 10
-290.0553788178165
 20
-686.6726233596093
 30
0.0
 40
3.5
  1
2
  2
GENPOSVAR
 70
     0
  7
GENPRESET
  0
ATTRIB
  8
0
  5
61
 10
-290.0553788178165
 20
-691.6726233596093
 30
0.0
 40
3.5
  1
0
  2
GENPOSBLK
 70
     0
  7
GENPRESET
  0
ATTRIB
  8
0
  5
62
 10
-290.0553788178165
 20
-696.6726233596093
 30
0.0
 40
3.5
  1
1
  2
GENPOSINC
 70
     0
  7
GENPRESET
  0
ATTRIB
  8
0
  5
63
 10
-290.0553788178165
 20
-701.6726233596093
 30
0.0
 40
3.5
  1
GEN-POS
  2
GENPARPOS
 70
     0
  7
GENPRESET
  0
ATTRIB
  8
0
  5
64
 10
-290.0553788178165
 20
-706.6726233596093
 30
0.0
 40
3.5
  1
GEN-SUM
  2
GENPARSUM
 70
     0
  7
GENPRESET
  0
ATTRIB
  8
0
  5
65
 10
-290.0553788178165
 20
-711.6726233596093
 30
0.0
 40
3.5
  1
CANONII
  2
GENPARDRU
 70
     0
  7
GENPRESET
  0
ATTRIB
  8
0
  5
66
 10
-290.0553788178165
 20
-716.6726233596093
 30
0.0
 40
3.5
  1

  2
GENSTDLG
 70
     0
  7
GENPRESET
  0
ATTRIB
  8
0
  5
67
 10
-290.0553788178165
 20
-721.6726233596093
 30
0.0
 40
3.5
  1
13
  2
GENCOLBK
 70
     0
  7
GENPRESET
  0
ATTRIB
  8
0
  5
68
 10
-290.0553788178165
 20
-726.6726233596093
 30
0.0
 40
3.5
  1
4
  2
GENCOLTI
 70
     0
  7
GENPRESET
  0
ATTRIB
  8
0
  5
69
 10
-290.0553788178165
 20
-731.6726233596093
 30
0.0
 40
3.5
  1
2
  2
GENCOLTX
 70
     0
  7
GENPRESET
  0
ATTRIB
  8
0
  5
6A
 10
-290.0553788178165
 20
-736.6726233596093
 30
0.0
 40
3.5
  1
c:\dos\edit
  2
GENEDITOR
 70
     0
  7
GENPRESET
  0
ATTRIB
  8
0
  5
6B
 10
-290.0553788178165
 20
-741.6726233596093
 30
0.0
 40
3.5
  1
M
  2
GENINCH
 70
     0
  7
GENPRESET
  0
ATTRIB
  8
0
  5
6C
 10
-290.0553788178165
 20
-746.6726233596093
 30
0.0
 40
3.5
  1
ISO
  2
GENDIMSTIL
 70
     0
  7
GENPRESET
  0
SEQEND
  8
0
  5
8C
  0
INSERT
  8
0
  5
6D
 66
     1
  2
AIT$MERK
 10
-290.0893427636931
 20
-661.7036921504287
 30
0.0
  0
ATTRIB
  8
AIT$HILFE
  5
6E
 10
-289.2582514693821
 20
-688.4665967873492
 30
0.0
 40
2.0
  1
genius11
  2
AIT$HAUTPMENUE
 70
     1
 41
0.8
  7
AIT$TSTIL
  0
ATTRIB
  8
AIT$HILFE
  5
6F
 10
-289.2582514693821
 20
-685.4665967873492
 30
0.0
 40
2.0
  1
1.0
  2
AIT$MASSTABSFAKTOR
 70
     1
 41
0.8
  7
AIT$TSTIL
  0
ATTRIB
  8
AIT$HILFE
  5
70
 10
-289.2582514693821
 20
-682.4665967873492
 30
0.0
 40
2.0
  1
0
  2
AIT$LETZTE-POSITION
 70
     1
 41
0.8
  7
AIT$TSTIL
  0
ATTRIB
  8
AIT$HILFE
  5
71
 10
-289.2582514693821
 20
-679.4665967873492
 30
0.0
 40
2.0
  1
0
  2
AIT$MERKER-4
 70
     1
 41
0.8
  7
AIT$TSTIL
  0
ATTRIB
  8
AIT$HILFE
  5
72
 10
-289.2582514693821
 20
-676.4665967873492
 30
0.0
 40
2.0
  1
0
  2
AIT$MERKER-5
 70
     1
 41
0.8
  7
AIT$TSTIL
  0
ATTRIB
  8
AIT$HILFE
  5
73
 10
-289.2582514693821
 20
-673.4665967873492
 30
0.0
 40
2.0
  1
1
  2
AIT$MERKER-6
 70
     1
 41
0.8
  7
AIT$TSTIL
  0
ATTRIB
  8
AIT$HILFE
  5
74
 10
-289.2582514693821
 20
-670.4665967873492
 30
0.0
 40
2.0
  1
-
  2
AIT$MERKER-7
 70
     1
 41
0.8
  7
AIT$TSTIL
  0
ATTRIB
  8
AIT$HILFE
  5
75
 10
-289.2582514693821
 20
-667.4665967873492
 30
0.0
 40
2.0
  1
-
  2
AIT$MERKER-8
 70
     1
 41
0.8
  7
AIT$TSTIL
  0
ATTRIB
  8
AIT$HILFE
  5
76
 10
-289.2582514693821
 20
-664.4665967873492
 30
0.0
 40
2.0
  1
-
  2
AIT$MERKER-9
 70
     1
 41
0.8
  7
AIT$TSTIL
  0
SEQEND
  8
0
  5
98
  0
ENDBLK
  8
0
  5
78
  0
BLOCK
  8
0
  5
154
  2
51113B
 70
     0
 10
0.0
 20
0.0
 30
0.0
  3
51113B
  0
LINE
  8
0
  5
114
 10
993.7471816001866
 20
582.9702852226741
 30
0.0
 11
993.7471816001871
 21
582.1060668918348
 31
0.0
  0
LINE
  8
0
  5
115
 10
996.0187449385077
 20
582.1060668918341
 30
0.0
 11
996.018744938508
 21
582.9702852226741
 31
0.0
  0
ARC
  8
0
  5
116
 10
994.8829632693473
 20
580.9702852226744
 30
0.0
 40
2.5
 50
17.45760312370671
 51
162.5423968762932
  0
ARC
  8
0
  5
117
 10
964.8829632693473
 20
580.9702852226744
 30
0.0
 40
20.0
 50
342.7159085704544
 51
17.28409142954658
  0
ARC
  8
0
  5
118
 10
964.8829632693473
 20
580.9702852226744
 30
0.0
 40
21.0
 50
342.7159085704542
 51
17.28409142954664
  0
ARC
  8
0
  5
119
 10
964.8829632693473
 20
580.9702852226744
 30
0.0
 40
40.0
 50
340.5169613098161
 51
19.48303869018468
  0
ARC
  8
0
  5
11A
 10
964.8829632693473
 20
580.9702852226744
 30
0.0
 40
39.0
 50
340.5169613098162
 51
19.48303869018444
  0
ARC
  8
0
  5
11B
 10
1000.707093410244
 20
568.2962290586806
 30
0.0
 40
2.0
 50
247.5000000000001
 51
340.5169613098145
1001
GENIUS_GENODEF_13
1002
{
1000
HIER
1070
     0
1002
}
1002
{
1000
MANEDIT
1070
     0
1002
}
1002
{
1000
NOSEL
1070
     0
1002
}
1002
{
1000
BEHIND
1070
     0
1002
}
1002
{
1000
REACTOR
1002
}
1001
GENIUS_GENOBJ-N-FIL_13
1002
{
1000
OWNER
1000
GEN
1002
}
  0
LINE
  8
0
  5
11C
 10
985.5068331166628
 20
573.5099908235911
 30
0.0
 11
1000.324409977879
 21
567.3723495261695
 31
0.0
  0
LINE
  8
0
  5
11D
 10
985.1241496842976
 20
572.5861112910799
 30
0.0
 11
999.9417265455144
 21
566.4484699936581
 31
0.0
  0
ARC
  8
0
  5
11E
 10
985.8895165490278
 20
574.4338703561024
 30
0.0
 40
2.0
 50
162.7159085704528
 51
247.5000000000001
1001
GENIUS_GENODEF_13
1002
{
1000
HIER
1070
     0
1002
}
1002
{
1000
MANEDIT
1070
     0
1002
}
1002
{
1000
NOSEL
1070
     0
1002
}
1002
{
1000
BEHIND
1070
     0
1002
}
1002
{
1000
REACTOR
1002
}
1001
GENIUS_GENOBJ-N-FIL_13
1002
{
1000
OWNER
1000
GEN
1002
}
  0
ARC
  8
0
  5
11F
 10
985.889516549028
 20
574.4338703561024
 30
0.0
 40
1.0
 50
162.7159085704555
 51
247.5000000000001
1001
GENIUS_GENODEF_13
1002
{
1000
HIER
1070
     0
1002
}
1002
{
1000
MANEDIT
1070
     0
1002
}
1002
{
1000
NOSEL
1070
     0
1002
}
1002
{
1000
BEHIND
1070
     0
1002
}
1002
{
1000
REACTOR
1002
}
1001
GENIUS_GENOBJ-N-FIL_13
1002
{
1000
OWNER
1000
GEN
1002
}
  0
LINE
  8
0
  5
120
 10
993.747181600188
 20
578.9702852226741
 30
0.0
 11
996.0187449385066
 21
578.9702852226741
 31
0.0
  0
LINE
  8
0
  5
121
 10
992.8829632693477
 20
579.8345035535137
 30
0.0
 11
993.7471816001875
 21
579.8345035535139
 31
0.0
  0
LINE
  8
0
  5
122
 10
996.0187449385066
 20
578.9702852226741
 30
0.0
 11
996.018744938507
 21
579.8345035535148
 31
0.0
  0
LINE
  8
0
  5
123
 10
993.7471816001866
 20
579.5817465855921
 30
0.0
 11
996.0187449385077
 21
579.5817465855921
 31
0.0
  0
LINE
  8
0
  5
124
 10
996.018744938507
 20
579.8345035535148
 30
0.0
 11
996.8829632693477
 21
579.8345035535148
 31
0.0
  0
LINE
  8
0
  5
125
 10
993.7471816001875
 20
579.8345035535139
 30
0.0
 11
993.747181600188
 21
578.9702852226741
 31
0.0
  0
LINE
  8
0
  5
126
 10
997.6329632693475
 20
580.2202852226744
 30
0.0
 11
996.8829632693468
 21
580.2202852226744
 31
0.0
  0
LINE
  8
0
  5
127
 10
996.8829632693477
 20
582.1060668918339
 30
0.0
 11
996.0187449385077
 21
582.1060668918341
 31
0.0
  0
LINE
  8
0
  5
128
 10
996.018744938507
 20
582.3588238597569
 30
0.0
 11
993.7471816001875
 21
582.3588238597569
 31
0.0
  0
LINE
  8
0
  5
129
 10
993.7471816001871
 20
582.1060668918348
 30
0.0
 11
992.8829632693477
 21
582.106066891835
 31
0.0
  0
LINE
  8
0
  5
12A
 10
997.6329632693475
 20
581.7202852226737
 30
0.0
 11
996.8829632693468
 21
581.7202852226737
 31
0.0
  0
CIRCLE
  8
0
  5
12B
 10
994.8829632693473
 20
580.9702852226744
 30
0.0
 40
1.25
  0
LINE
  8
0
  5
12C
 10
996.8829632693477
 20
579.8345035535148
 30
0.0
 11
996.8829632693477
 21
582.1060668918339
 31
0.0
  0
LINE
  8
0
  5
12D
 10
992.8829632693477
 20
582.106066891835
 30
0.0
 11
992.8829632693477
 21
579.8345035535137
 31
0.0
  0
LINE
  8
0
  5
12E
 10
993.4944246322656
 20
582.1060668918348
 30
0.0
 11
993.4944246322656
 21
579.8345035535139
 31
0.0
  0
LINE
  8
0
  5
12F
 10
996.2715019064305
 20
579.8345035535148
 30
0.0
 11
996.2715019064305
 21
582.1060668918339
 31
0.0
  0
ARC
  8
0
  5
130
 10
997.6329632693475
 20
580.9702852226741
 30
0.0
 40
0.7499999999997158
 50
270.0
 51
90.0
  0
ARC
  8
0
  5
131
 10
992.1329632693471
 20
580.9702852226741
 30
0.0
 40
0.7499999999997158
 50
90.0
 51
270.0
  0
LINE
  8
0
  5
132
 10
992.1329632693471
 20
580.2202852226744
 30
0.0
 11
992.8829632693477
 21
580.2202852226744
 31
0.0
  0
ARC
  8
0
  5
133
 10
994.8829632693473
 20
580.9702852226744
 30
0.0
 40
2.5
 50
197.4576031237238
 51
342.5423968762762
  0
LINE
  8
0
  5
134
 10
992.1329632693471
 20
581.7202852226737
 30
0.0
 11
992.8829632693477
 21
581.7202852226737
 31
0.0
  0
ARC
  8
0
  5
135
 10
1000.707093410244
 20
568.2962290586806
 30
0.0
 40
1.0
 50
247.5000000000001
 51
340.5169613098178
1001
GENIUS_GENODEF_13
1002
{
1000
HIER
1070
     0
1002
}
1002
{
1000
MANEDIT
1070
     0
1002
}
1002
{
1000
NOSEL
1070
     0
1002
}
1002
{
1000
BEHIND
1070
     0
1002
}
1002
{
1000
REACTOR
1002
}
1001
GENIUS_GENOBJ-N-FIL_13
1002
{
1000
OWNER
1000
GEN
1002
}
  0
ARC
  8
0
  5
136
 10
1000.707093410244
 20
593.6443413866682
 30
0.0
 40
2.0
 50
19.48303869018504
 51
112.4999999999955
1001
GENIUS_GENODEF_13
1002
{
1000
HIER
1070
     0
1002
}
1002
{
1000
MANEDIT
1070
     0
1002
}
1002
{
1000
NOSEL
1070
     0
1002
}
1002
{
1000
BEHIND
1070
     0
1002
}
1002
{
1000
REACTOR
1002
}
1001
GENIUS_GENOBJ-N-FIL_13
1002
{
1000
OWNER
1000
GEN
1002
}
  0
LINE
  8
0
  5
137
 10
985.5068331166628
 20
588.4305796217574
 30
0.0
 11
1000.324409977879
 21
594.5682209191791
 31
0.0
  0
LINE
  8
0
  5
138
 10
985.1241496842978
 20
589.354459154269
 30
0.0
 11
999.9417265455144
 21
595.4921004516907
 31
0.0
  0
ARC
  8
0
  5
139
 10
985.8895165490278
 20
587.5067000892465
 30
0.0
 40
2.0
 50
112.4999999999955
 51
197.2840914295473
1001
GENIUS_GENODEF_13
1002
{
1000
HIER
1070
     0
1002
}
1002
{
1000
MANEDIT
1070
     0
1002
}
1002
{
1000
NOSEL
1070
     0
1002
}
1002
{
1000
BEHIND
1070
     0
1002
}
1002
{
1000
REACTOR
1002
}
1001
GENIUS_GENOBJ-N-FIL_13
1002
{
1000
OWNER
1000
GEN
1002
}
  0
ARC
  8
0
  5
13A
 10
985.8895165490278
 20
587.5067000892465
 30
0.0
 40
1.0
 50
112.4999999999955
 51
197.2840914295469
1001
GENIUS_GENODEF_13
1002
{
1000
HIER
1070
     0
1002
}
1002
{
1000
MANEDIT
1070
     0
1002
}
1002
{
1000
NOSEL
1070
     0
1002
}
1002
{
1000
BEHIND
1070
     0
1002
}
1002
{
1000
REACTOR
1002
}
1001
GENIUS_GENOBJ-N-FIL_13
1002
{
1000
OWNER
1000
GEN
1002
}
  0
LINE
  8
0
  5
13B
 10
996.018744938508
 20
582.9702852226741
 30
0.0
 11
993.7471816001866
 21
582.9702852226741
 31
0.0
  0
ARC
  8
0
  5
13C
 10
1000.707093410244
 20
593.6443413866682
 30
0.0
 40
1.0
 50
19.48303869018504
 51
112.5000000000048
1001
GENIUS_GENODEF_13
1002
{
1000
HIER
1070
     0
1002
}
1002
{
1000
MANEDIT
1070
     0
1002
}
1002
{
1000
NOSEL
1070
     0
1002
}
1002
{
1000
BEHIND
1070
     0
1002
}
1002
{
1000
REACTOR
1002
}
1001
GENIUS_GENOBJ-N-FIL_13
1002
{
1000
OWNER
1000
GEN
1002
}
  0
LINE
  8
2A
  5
13D
 10
994.8829632693473
 20
580.9702852226744
 30
0.0
 11
998.8729500513529
 21
580.9702852226744
 31
0.0
1001
GENIUS_GENOREF_13
1005
141
  0
LINE
  8
7A
  5
13E
 10
994.8829632693473
 20
580.9702852226744
 30
0.0
 11
994.8829632693473
 21
583.8676094065949
 31
0.0
1001
GENIUS_GENOREF_13
1005
141
  0
LINE
  8
7A
  5
13F
 10
994.8829632693473
 20
580.9702852226744
 30
0.0
 11
983.364675515269
 21
580.9702852226744
 31
0.0
1001
GENIUS_GENOREF_13
1005
141
  0
LINE
  8
7A
  5
140
 10
994.8829632693473
 20
580.9702852226744
 30
0.0
 11
994.8829632693473
 21
567.3022469970042
 31
0.0
1001
GENIUS_GENOREF_13
1005
141
  0
POINT
  8
0
  5
141
 10
-972.9819520894307
 20
-555.8041518964105
 30
0.0
1001
GENIUS_GENOENT_13
1002
{
1000
MYREF
1005
141
1002
}
1002
{
1000
GRP
1005
0
1002
}
1001
GENIUS_GENOLIS_13
1002
{
1000
ENT
1005
140
1005
13F
1005
13E
1005
13D
1002
}
1001
GENIUS_GENODEF_13
1002
{
1000
HIER
1070
    10
1002
}
1002
{
1000
MANEDIT
1070
     1
1002
}
1002
{
1000
NOSEL
1070
     0
1002
}
1002
{
1000
BEHIND
1070
     0
1002
}
1002
{
1000
REACTOR
1002
}
1001
GENIUS_GENOBJ-N-CRS_13
1002
{
1000
OWNER
1000
GEN
1002
}
  0
LINE
  8
7A
  5
142
 10
1000.882963269347
 20
574.4702852226744
 30
0.0
 11
1002.857122607815
 21
574.4702852226744
 31
0.0
1001
GENIUS_GENOREF_13
1005
146
  0
LINE
  8
7A
  5
143
 10
1000.882963269347
 20
574.4702852226744
 30
0.0
 11
1000.882963269347
 21
576.2260623139841
 31
0.0
1001
GENIUS_GENOREF_13
1005
146
  0
LINE
  8
7A
  5
144
 10
1000.882963269347
 20
574.4702852226744
 30
0.0
 11
998.8729500513529
 21
574.4702852226744
 31
0.0
1001
GENIUS_GENOREF_13
1005
146
  0
LINE
  8
7A
  5
145
 10
1000.882963269347
 20
574.4702852226744
 30
0.0
 11
1000.882963269347
 21
572.7145081313647
 31
0.0
1001
GENIUS_GENOREF_13
1005
146
  0
POINT
  8
0
  5
146
 10
-972.9819520894307
 20
-555.8041518964105
 30
0.0
1001
GENIUS_GENOENT_13
1002
{
1000
MYREF
1005
146
1002
}
1002
{
1000
GRP
1005
0
1002
}
1001
GENIUS_GENOLIS_13
1002
{
1000
ENT
1005
145
1005
144
1005
143
1005
142
1002
}
1001
GENIUS_GENODEF_13
1002
{
1000
HIER
1070
    10
1002
}
1002
{
1000
MANEDIT
1070
     0
1002
}
1002
{
1000
NOSEL
1070
     0
1002
}
1002
{
1000
BEHIND
1070
     0
1002
}
1002
{
1000
REACTOR
1002
}
1001
GENIUS_GENOBJ-N-CRS_13
1002
{
1000
OWNER
1000
GEN
1002
}
  0
LINE
  8
7A
  5
147
 10
998.8729500513529
 20
580.9702852226744
 30
0.0
 11
1005.912973538951
 21
580.9702852226744
 31
0.0
  0
ARC
  8
7A
  5
148
 10
964.8829632693471
 20
580.9702852226746
 30
0.0
 40
30.0
 50
335.9059349496139
 51
5.516373251185282
  0
LINE
  8
7A
  5
149
 10
994.8829632693473
 20
585.1112387657813
 30
0.0
 11
994.8829632693473
 21
594.6383234483446
 31
0.0
1001
GENIUS_GENOREF_13
1005
141
  0
ARC
  8
7A
  5
14A
 10
964.8829632693471
 20
580.9702852226746
 30
0.0
 40
30.0
 50
7.776190972480999
 51
25.35732142942985
  0
CIRCLE
  8
0
  5
14B
 10
1000.882963269347
 20
574.470285222671
 30
0.0
 40
1.0
  0
LINE
  8
6
  5
14C
 10
989.3637731015071
 20
572.9947861729015
 30
0.0
 11
995.9538723642326
 21
570.2650776808959
 31
0.0
  0
LINE
  8
6
  5
14D
 10
990.8945068309676
 20
576.6903043029469
 30
0.0
 11
997.4846060936934
 21
573.9605958109409
 31
0.0
  0
ARC
  8
6
  5
14E
 10
990.1291399662311
 20
574.8425452379092
 30
0.0
 40
1.999999999979913
 50
67.49999999999874
 51
247.4999999999981
  0
ARC
  8
6
  5
14F
 10
996.7192392289566
 20
572.1128367459034
 30
0.0
 40
1.999999999979913
 50
247.4999999999986
 51
67.49999999999869
  0
ARC
  8
6
  5
150
 10
990.1291399662311
 20
587.0980252074396
 30
0.0
 40
1.999999999979913
 50
112.5000000000017
 51
292.5000000000012
  0
LINE
  8
6
  5
151
 10
990.8945068309676
 20
585.2502661424018
 30
0.0
 11
997.4846060936934
 21
587.9799746344078
 31
0.0
  0
LINE
  8
6
  5
152
 10
989.3637731015071
 20
588.9457842724473
 30
0.0
 11
995.9538723642326
 21
591.6754927644528
 31
0.0
  0
ARC
  8
6
  5
153
 10
996.7192392289566
 20
589.8277336994453
 30
0.0
 40
1.999999999979913
 50
292.5000000000013
 51
112.5000000000013
  0
ENDBLK
  8
0
  5
155
  0
BLOCK
  8
0
  5
19C
  2
X0042562
 70
     0
 10
0.0
 20
0.0
 30
0.0
  3
X0042562
  0
POLYLINE
  8
ITEM_50
  5
174
 66
     1
 10
0.0
 20
0.0
 30
0.0
 70
     1
1001
GENIUS_GENODEF_13
1002
{
1000
HIER
1070
     0
1002
}
1002
{
1000
MANEDIT
1070
     0
1002
}
1002
{
1000
NOSEL
1070
     0
1002
}
1002
{
1000
BEHIND
1070
     0
1002
}
1002
{
1000
REACTOR
1002
}
1001
GENIUS_GENOBJ-N-FIL_13
1002
{
1000
OWNER
1000
GEN
1002
}
  0
VERTEX
  8
ITEM_50
  5
175
 10
-1342.49448875036
 20
-577.1745302438768
 30
0.0
 42
0.4142135623730951
  0
VERTEX
  8
ITEM_50
  5
176
 10
-1340.99448875036
 20
-575.6745302438768
 30
0.0
  0
VERTEX
  8
ITEM_50
  5
177
 10
-1340.99448875036
 20
-551.2559280762521
 30
0.0
 42
0.4142135623730951
1001
GENIUS_GENODEF_13
1002
{
1000
HIER
1070
     0
1002
}
1002
{
1000
MANEDIT
1070
     0
1002
}
1002
{
1000
NOSEL
1070
     0
1002
}
1002
{
1000
BEHIND
1070
     0
1002
}
1002
{
1000
REACTOR
1002
}
1001
GENIUS_GENOBJ-N-FIL_13
1002
{
1000
OWNER
1000
GEN
1002
}
  0
VERTEX
  8
ITEM_50
  5
178
 10
-1342.49448875036
 20
-549.7559280762521
 30
0.0
1001
GENIUS_GENODEF_13
1002
{
1000
HIER
1070
     0
1002
}
1002
{
1000
MANEDIT
1070
     0
1002
}
1002
{
1000
NOSEL
1070
     0
1002
}
1002
{
1000
BEHIND
1070
     0
1002
}
1002
{
1000
REACTOR
1002
}
1001
GENIUS_GENOBJ-N-FIL_13
1002
{
1000
OWNER
1000
GEN
1002
}
  0
VERTEX
  8
ITEM_50
  5
179
 10
-1343.49448875036
 20
-549.7559280762521
 30
0.0
  0
VERTEX
  8
ITEM_50
  5
17A
 10
-1343.49448875036
 20
-577.1745302438768
 30
0.0
  0
SEQEND
  8
ITEM_50
  5
17B
1001
GENIUS_GENODEF_13
1002
{
1000
HIER
1070
     0
1002
}
1002
{
1000
MANEDIT
1070
     0
1002
}
1002
{
1000
NOSEL
1070
     0
1002
}
1002
{
1000
BEHIND
1070
     0
1002
}
1002
{
1000
REACTOR
1002
}
1001
GENIUS_GENOBJ-N-FIL_13
1002
{
1000
OWNER
1000
GEN
1002
}
  0
POLYLINE
  8
ITEM_50
  5
17C
 66
     1
 10
0.0
 20
0.0
 30
0.0
 70
     1
  0
VERTEX
  8
ITEM_50
  5
17D
 10
-1388.610751152932
 20
-536.3028938993597
 30
0.0
  0
VERTEX
  8
ITEM_50
  5
17E
 10
-1366.572338182219
 20
-536.3028938993597
 30
0.0
 42
-0.4142135623730951
  0
VERTEX
  8
ITEM_50
  5
17F
 10
-1365.072338182219
 20
-537.8028938993597
 30
0.0
  0
VERTEX
  8
ITEM_50
  5
180
 10
-1365.072338182219
 20
-538.8028938993597
 30
0.0
  0
VERTEX
  8
ITEM_50
  5
181
 10
-1390.110751152932
 20
-538.8028938993597
 30
0.0
  0
VERTEX
  8
ITEM_50
  5
182
 10
-1390.110751152932
 20
-537.8028938993597
 30
0.0
 42
-0.4142135623730951
  0
SEQEND
  8
ITEM_50
  5
183
  0
LINE
  8
ITEM_25
  5
184
 10
-1343.063300883748
 20
-563.0323946201456
 30
0.0
 11
-1341.396398050685
 21
-563.0323946201456
 31
0.0
  0
POINT
  8
ITEM_HILFE
  5
185
 10
-1343.49448875036
 20
-549.7559280762521
 30
0.0
  0
POINT
  8
ITEM_HILFE
  5
186
 10
-1343.49448875036
 20
-577.1745302438768
 30
0.0
  0
POINT
  8
ITEM_HILFE
  5
187
 10
-1365.072338182219
 20
-538.8028938993597
 30
0.0
  0
POINT
  8
ITEM_HILFE
  5
188
 10
-1390.110751152932
 20
-538.8028938993597
 30
0.0
  0
POINT
  8
ITEM_HILFE
  5
189
 10
-1365.016898100135
 20
-577.1745302438768
 30
0.0
  0
POINT
  8
ITEM_HILFE
  5
18A
 10
-1385.016898100135
 20
-577.1745302438766
 30
0.0
  0
POINT
  8
ITEM_HILFE
  5
18B
 10
-1390.874762476404
 20
-563.0323946201456
 30
0.0
  0
POINT
  8
ITEM_HILFE
  5
18C
 10
-1376.732626852673
 20
-548.8902589964145
 30
0.0
  0
LINE
  8
ITEM_25
  5
18D
 10
-1367.97236149383
 20
-575.6745302438768
 30
0.0
 11
-1382.337558820434
 21
-575.6745302438766
 31
0.0
  0
ARC
  8
ITEM_25
  5
18E
 10
-1405.016898100134
 20
-577.1745302438764
 30
0.0
 40
38.49999999999965
 50
3.016961309815444
 51
41.98303869018413
  0
LINE
  8
ITEM_25
  5
18F
 10
-1387.838391698509
 20
-562.1173441858106
 30
0.0
 11
-1377.501946283373
 21
-551.780898770674
 31
0.0
  0
ARC
  8
ITEM_25
  5
190
 10
-1405.016898100135
 20
-577.1745302438765
 30
0.0
 40
21.49999999999992
 50
5.215908570453704
 51
39.7840914295462
  0
POLYLINE
  8
ITEM_50
  5
191
 66
     1
 10
0.0
 20
0.0
 30
0.0
 70
     1
  0
VERTEX
  8
ITEM_50
  5
192
 10
-1375.283183055534
 20
-550.418106909535
 30
0.0
 42
-0.1716790450467172
  0
VERTEX
  8
ITEM_50
  5
193
 10
-1365.072338182219
 20
-575.0692670859817
 30
0.0
 42
-0.4297215771585001
  0
VERTEX
  8
ITEM_50
  5
194
 10
-1367.069566178114
 20
-577.1745302438768
 30
0.0
  0
VERTEX
  8
ITEM_50
  5
195
 10
-1383.107995799928
 20
-577.1745302438766
 30
0.0
 42
-0.3877945824088075
  0
VERTEX
  8
ITEM_50
  5
196
 10
-1385.099714190856
 20
-575.3563484256948
 30
0.0
 42
0.1519864850378592
  0
VERTEX
  8
ITEM_50
  5
197
 10
-1389.647673602678
 20
-564.3766031325523
 30
0.0
 42
-0.38779458240883
  0
VERTEX
  8
ITEM_50
  5
198
 10
-1389.524964715305
 20
-561.6825968590467
 30
0.0
  0
VERTEX
  8
ITEM_50
  5
199
 10
-1378.184082370137
 20
-550.341714513879
 30
0.0
 42
-0.4297215771584801
  0
SEQEND
  8
ITEM_50
  5
19A
  0
LINE
  8
ITEM_HILFE
  5
19B
 10
-1384.456395524855
 20
-538.4290859150976
 30
0.0
 11
-1384.456395524855
 21
-536.7170045227704
 31
0.0
  0
ENDBLK
  8
0
  5
19D
  0
ENDSEC
  0
SECTION
  2
ENTITIES
  0
INSERT
  8
0
  5
DF
 66
     1
  2
GENPRESE
 10
361.3069466700441
 20
785.2370439401687
 30
0.0
  0
ATTRIB
  8
0
  5
E0
 10
361.3069466700441
 20
785.2370439401687
 30
0.0
 40
3.5
  1
A3
  2
GEN-KO2
 70
     0
  7
GENPRESET
  0
ATTRIB
  8
0
  5
E1
 10
361.3069466700441
 20
780.2370439401687
 30
0.0
 40
3.5
  1
item
  2
GEN-KO3
 70
     0
  7
GENPRESET
  0
ATTRIB
  8
0
  5
E2
 10
361.3069466700441
 20
775.2370439401687
 30
0.0
 40
3.5
  1
15
  2
GENSI
 70
     0
  7
GENPRESET
  0
ATTRIB
  8
0
  5
E3
 10
361.3069466700441
 20
770.2370439401687
 30
0.0
 40
3.5
  1

  2
GENSD
 70
     0
  7
GENPRESET
  0
ATTRIB
  8
0
  5
E4
 10
361.3748745617974
 20
765.2991815218074
 30
0.0
 40
3.5
  1
0
  2
GENIF
 70
     0
  7
GENPRESET
  0
ATTRIB
  8
0
  5
E5
 10
361.3409106159207
 20
760.2681127309881
 30
0.0
 40
3.5
  1
2
  2
GENPOSVAR
 70
     0
  7
GENPRESET
  0
ATTRIB
  8
0
  5
E6
 10
361.3409106159207
 20
755.2681127309881
 30
0.0
 40
3.5
  1
0
  2
GENPOSBLK
 70
     0
  7
GENPRESET
  0
ATTRIB
  8
0
  5
E7
 10
361.3409106159207
 20
750.2681127309881
 30
0.0
 40
3.5
  1
1
  2
GENPOSINC
 70
     0
  7
GENPRESET
  0
ATTRIB
  8
0
  5
E8
 10
361.3409106159207
 20
745.2681127309881
 30
0.0
 40
3.5
  1
GEN-POS
  2
GENPARPOS
 70
     0
  7
GENPRESET
  0
ATTRIB
  8
0
  5
E9
 10
361.3409106159207
 20
740.2681127309881
 30
0.0
 40
3.5
  1
GEN-SUM
  2
GENPARSUM
 70
     0
  7
GENPRESET
  0
ATTRIB
  8
0
  5
EA
 10
361.3409106159207
 20
735.2681127309881
 30
0.0
 40
3.5
  1
CANONII
  2
GENPARDRU
 70
     0
  7
GENPRESET
  0
ATTRIB
  8
0
  5
EB
 10
361.3409106159207
 20
730.2681127309881
 30
0.0
 40
3.5
  1

  2
GENSTDLG
 70
     0
  7
GENPRESET
  0
ATTRIB
  8
0
  5
EC
 10
361.3409106159207
 20
725.2681127309881
 30
0.0
 40
3.5
  1
13
  2
GENCOLBK
 70
     0
  7
GENPRESET
  0
ATTRIB
  8
0
  5
ED
 10
361.3409106159207
 20
720.2681127309881
 30
0.0
 40
3.5
  1
4
  2
GENCOLTI
 70
     0
  7
GENPRESET
  0
ATTRIB
  8
0
  5
EE
 10
361.3409106159207
 20
715.2681127309881
 30
0.0
 40
3.5
  1
2
  2
GENCOLTX
 70
     0
  7
GENPRESET
  0
ATTRIB
  8
0
  5
EF
 10
361.3409106159207
 20
710.2681127309881
 30
0.0
 40
3.5
  1
c:\dos\edit
  2
GENEDITOR
 70
     0
  7
GENPRESET
  0
ATTRIB
  8
0
  5
F0
 10
361.3409106159207
 20
705.2681127309881
 30
0.0
 40
3.5
  1
M
  2
GENINCH
 70
     0
  7
GENPRESET
  0
ATTRIB
  8
0
  5
F1
 10
361.3409106159207
 20
700.2681127309881
 30
0.0
 40
3.5
  1
ISO
  2
GENDIMSTIL
 70
     0
  7
GENPRESET
  0
SEQEND
  8
0
  5
F2
  0
CIRCLE
  8
ITEM_50
  5
1C9
 10
355.0140595432434
 20
827.5186224157376
 30
0.0
 40
2.149999999999999
  0
LINE
  8
ITEM_25
  5
1E2
 10
389.0153000930844
 20
830.1811835379562
 30
0.0
 11
389.7207781990372
 21
830.1811835379562
 31
0.0
  0
POINT
  8
ITEM_HILFE
  5
1E3
 10
388.8193097352614
 20
843.4576500818496
 30
0.0
  0
POINT
  8
ITEM_HILFE
  5
1E4
 10
388.8193097352614
 20
816.039047914225
 30
0.0
  0
POINT
  8
ITEM_HILFE
  5
1E5
 10
367.2414603034033
 20
854.410684258742
 30
0.0
  0
POINT
  8
ITEM_HILFE
  5
1E6
 10
342.2030473326897
 20
854.410684258742
 30
0.0
  0
POINT
  8
ITEM_HILFE
  5
1E7
 10
367.2969003854871
 20
816.039047914225
 30
0.0
  0
POINT
  8
ITEM_HILFE
  5
1E8
 10
347.2969003854871
 20
816.0390479142251
 30
0.0
  0
POINT
  8
ITEM_HILFE
  5
1E9
 10
341.4390360092179
 20
830.1811835379562
 30
0.0
  0
POINT
  8
ITEM_HILFE
  5
1EA
 10
355.5811716329487
 20
844.3233191616873
 30
0.0
  0
LINE
  8
ITEM_HILFE
  5
1F9
 10
347.8574029607671
 20
854.5841012923117
 30
0.0
 11
347.8574029607671
 21
855.3207445725473
 31
0.0
  0
POLYLINE
  8
ITEM_50
  5
224
 66
     1
 10
0.0
 20
0.0
 30
0.0
 70
     1
1001
GENIUS_GENODEF_13
1002
{
1000
HIER
1070
     0
1002
}
1002
{
1000
MANEDIT
1070
     0
1002
}
1002
{
1000
NOSEL
1070
     0
1002
}
1002
{
1000
BEHIND
1070
     0
1002
}
1002
{
1000
REACTOR
1002
}
1001
GENIUS_GENOBJ-N-FIL_13
1002
{
1000
OWNER
1000
GEN
1002
}
  0
VERTEX
  8
ITEM_50
  5
24F
 10
353.0010050640357
 20
832.7611948198428
 30
0.0
  0
VERTEX
  8
ITEM_50
  5
24D
 10
352.1987449691447
 20
831.958934724952
 30
0.0
 42
-0.1989123673796603
  0
VERTEX
  8
ITEM_50
  5
24C
 10
350.0774246255854
 20
831.0802550685116
 30
0.0
  0
VERTEX
  8
ITEM_50
  5
24B
 10
346.8950100965304
 20
831.0802550685166
 30
0.0
 42
-0.6681773715210724
  0
VERTEX
  8
ITEM_50
  5
24A
 10
346.3064091147492
 20
832.5012705793538
 30
0.0
  0
VERTEX
  8
ITEM_50
  5
249
 10
347.8037702223147
 20
833.9986316869194
 30
0.0
 42
0.4142135623730675
  0
VERTEX
  8
ITEM_50
  5
248
 10
347.8037702223147
 20
834.4228957556312
 30
0.0
  0
VERTEX
  8
ITEM_50
  5
247
 10
347.307944649553
 20
834.9187213283928
 30
0.0
 42
0.4142135623730909
  0
VERTEX
  8
ITEM_50
  5
246
 10
346.1765737996545
 20
834.9187213283928
 30
0.0
  0
VERTEX
  8
ITEM_50
  5
245
 10
342.7888337703168
 20
831.5309812990551
 30
0.0
 42
0.3877945824088285
  0
VERTEX
  8
ITEM_50
  5
244
 10
342.6661248829439
 20
828.8369750255495
 30
0.0
 42
-0.1519864850378594
  0
VERTEX
  8
ITEM_50
  5
243
 10
347.2140842947658
 20
817.857229732407
 30
0.0
 42
0.3877945824088077
  0
VERTEX
  8
ITEM_50
  5
242
 10
349.2058026856936
 20
816.0390479142251
 30
0.0
  0
VERTEX
  8
ITEM_50
  5
241
 10
353.997673567902
 20
816.0390479142253
 30
0.0
 42
0.4142135623731396
  0
VERTEX
  8
ITEM_50
  5
240
 10
354.7976735679019
 20
816.8390479142253
 30
0.0
  0
VERTEX
  8
ITEM_50
  5
23F
 10
354.797673567902
 20
817.5381194447878
 30
0.0
 42
0.4142135623730671
  0
VERTEX
  8
ITEM_50
  5
23E
 10
354.497673567902
 20
817.8381194447877
 30
0.0
  0
VERTEX
  8
ITEM_50
  5
23D
 10
352.3800851818128
 20
817.8381194447877
 30
0.0
 42
-0.6681773715210726
  0
VERTEX
  8
ITEM_50
  5
23C
 10
351.7914792235593
 20
819.2591328943025
 30
0.0
  0
VERTEX
  8
ITEM_50
  5
23B
 10
354.0417861175969
 20
821.5094397883475
 30
0.0
 42
-0.1989123673796601
  0
VERTEX
  8
ITEM_50
  5
23A
 10
356.1631064611566
 20
822.3881194447876
 30
0.0
  0
VERTEX
  8
ITEM_50
  5
238
 10
357.297673567902
 20
822.3881194447875
 30
0.0
  0
VERTEX
  8
ITEM_50
  5
237
 10
358.4322406746474
 20
822.3881194447876
 30
0.0
 42
-0.1989123673796606
  0
VERTEX
  8
ITEM_50
  5
236
 10
360.553561018207
 20
821.5094397883473
 30
0.0
  0
VERTEX
  8
ITEM_50
  5
235
 10
362.8038679122447
 20
819.2591328943024
 30
0.0
 42
-0.6681773715232018
  0
VERTEX
  8
ITEM_50
  5
234
 10
362.2152619539946
 20
817.8381194447877
 30
0.0
  0
VERTEX
  8
ITEM_50
  5
231
 10
360.0976735679021
 20
817.8381194447877
 30
0.0
 42
0.4142135623730399
  0
VERTEX
  8
ITEM_50
  5
230
 10
359.797673567902
 20
817.5381194447877
 30
0.0
  0
VERTEX
  8
ITEM_50
  5
22F
 10
359.7976735679021
 20
816.8390479142252
 30
0.0
 42
0.4142135623730888
  0
VERTEX
  8
ITEM_50
  5
22E
 10
360.5976735679021
 20
816.0390479142251
 30
0.0
  0
VERTEX
  8
ITEM_50
  5
22D
 10
365.2442323075074
 20
816.039047914225
 30
0.0
 42
0.4297215771584904
  0
VERTEX
  8
ITEM_50
  5
22C
 10
367.2414603034033
 20
818.1443110721201
 30
0.0
 42
0.1716790450467173
  0
VERTEX
  8
ITEM_50
  5
22B
 10
357.0306154300874
 20
842.7954712485668
 30
0.0
 42
0.4297215771584683
  0
VERTEX
  8
ITEM_50
  5
22A
 10
354.1297161154845
 20
842.8718636442227
 30
0.0
  0
VERTEX
  8
ITEM_50
  5
225
 10
350.8434785554858
 20
839.585626084224
 30
0.0
 42
0.4142135623730851
1001
GENIUS_GENODEF_13
1002
{
1000
HIER
1070
     0
1002
}
1002
{
1000
MANEDIT
1070
     0
1002
}
1002
{
1000
NOSEL
1070
     0
1002
}
1002
{
1000
BEHIND
1070
     0
1002
}
1002
{
1000
REACTOR
1002
}
1001
GENIUS_GENOBJ-N-FIL_13
1002
{
1000
OWNER
1000
GEN
1002
}
  0
VERTEX
  8
ITEM_50
  5
226
 10
350.8434785554858
 20
838.4542552343255
 30
0.0
1001
GENIUS_GENODEF_13
1002
{
1000
HIER
1070
     0
1002
}
1002
{
1000
MANEDIT
1070
     0
1002
}
1002
{
1000
NOSEL
1070
     0
1002
}
1002
{
1000
BEHIND
1070
     0
1002
}
1002
{
1000
REACTOR
1002
}
1001
GENIUS_GENOBJ-N-FIL_13
1002
{
1000
OWNER
1000
GEN
1002
}
  0
VERTEX
  8
ITEM_50
  5
228
 10
351.3393041282474
 20
837.9584296615639
 30
0.0
 42
0.4142135623730392
  0
VERTEX
  8
ITEM_50
  5
229
 10
351.7635681969595
 20
837.9584296615641
 30
0.0
  0
VERTEX
  8
ITEM_50
  5
232
 10
353.2609293045272
 20
839.4557907691319
 30
0.0
 42
-0.6681773715232019
  0
VERTEX
  8
ITEM_50
  5
233
 10
354.6819448153619
 20
838.8671897873482
 30
0.0
  0
VERTEX
  8
ITEM_50
  5
239
 10
354.681944815367
 20
835.6847752582933
 30
0.0
 42
-0.1989123673796603
  0
VERTEX
  8
ITEM_50
  5
24E
 10
353.8032651589264
 20
833.5634549147338
 30
0.0
  0
SEQEND
  8
ITEM_50
  5
227
1001
GENIUS_GENODEF_13
1002
{
1000
HIER
1070
     0
1002
}
1002
{
1000
MANEDIT
1070
     0
1002
}
1002
{
1000
NOSEL
1070
     0
1002
}
1002
{
1000
BEHIND
1070
     0
1002
}
1002
{
1000
REACTOR
1002
}
1001
GENIUS_GENOBJ-N-FIL_13
1002
{
1000
OWNER
1000
GEN
1002
}
  0
POLYLINE
  8
ITEM_50
  5
250
 66
     1
 10
0.0
 20
0.0
 30
0.0
 70
     1
  0
VERTEX
  8
ITEM_50
  5
257
 10
364.3677856309608
 20
820.2407995878569
 30
0.0
 42
0.712907682223604
  0
VERTEX
  8
ITEM_50
  5
256
 10
365.2176741071468
 20
820.6547804788962
 30
0.0
 42
0.1366144749427828
  0
VERTEX
  8
ITEM_50
  5
251
 10
357.3756354154601
 20
839.5871366450207
 30
0.0
 42
0.7129076822236053
  0
VERTEX
  8
ITEM_50
  5
252
 10
356.4819448153612
 20
839.2789034355928
 30
0.0
  0
VERTEX
  8
ITEM_50
  5
254
 10
356.4819448153734
 20
831.7316887047604
 30
0.0
 42
0.2912989600264526
  0
VERTEX
  8
ITEM_50
  5
255
 10
356.7703442484775
 20
831.2786708242208
 30
0.0
 42
-0.3885085294499698
  0
VERTEX
  8
ITEM_50
  5
258
 10
358.9146960952394
 20
826.1017475132736
 30
0.0
 42
0.291298960026482
  0
VERTEX
  8
ITEM_50
  5
259
 10
359.0310989157268
 20
825.5774863031078
 30
0.0
  0
SEQEND
  8
ITEM_50
  5
253
  0
POLYLINE
  8
ITEM_50
  5
25B
 66
     1
 10
0.0
 20
0.0
 30
0.0
 70
     1
  0
VERTEX
  8
ITEM_50
  5
264
 10
345.5987112364742
 20
829.2802550685188
 30
0.0
  0
VERTEX
  8
ITEM_50
  5
262
 10
350.5384832619783
 20
829.2802550685109
 30
0.0
 42
-0.4971809609894622
  0
VERTEX
  8
ITEM_50
  5
25C
 10
351.0197280234015
 20
828.6445956434822
 30
0.0
 42
0.3466990091700598
  0
VERTEX
  8
ITEM_50
  5
25D
 10
352.9858239440287
 20
823.8980202069776
 30
0.0
 42
-0.4971809609894677
  0
VERTEX
  8
ITEM_50
  5
25F
 10
353.0950115997787
 20
823.1082496828017
 30
0.0
  0
VERTEX
  8
ITEM_50
  5
260
 10
349.6020653030349
 20
819.6153033860467
 30
0.0
 42
-0.6059057067966953
  0
VERTEX
  8
ITEM_50
  5
261
 10
348.7563406491107
 20
819.8807236526068
 30
0.0
 42
0.1081725176101473
  0
VERTEX
  8
ITEM_50
  5
263
 10
345.1883740690167
 20
828.4945569603634
 30
0.0
 42
-0.6059057067967538
  0
SEQEND
  8
ITEM_50
  5
25E
  0
LINE
  8
ITEM_50
  5
267
 10
367.2414603034033
 20
855.410684258742
 30
0.0
 11
367.2414603034033
 21
854.410684258742
 31
0.0
  0
LINE
  8
ITEM_50
  5
268
 10
367.2414603034033
 20
854.410684258742
 30
0.0
 11
342.2030473326897
 21
854.410684258742
 31
0.0
  0
LINE
  8
ITEM_50
  5
269
 10
342.2030473326897
 20
854.410684258742
 30
0.0
 11
342.2030473326897
 21
855.410684258742
 31
0.0
  0
LINE
  8
ITEM_50
  5
26E
 10
389.8193097352614
 20
843.4576500818496
 30
0.0
 11
388.8193097352614
 21
843.4576500818496
 31
0.0
  0
LINE
  8
ITEM_50
  5
26F
 10
388.8193097352614
 20
843.4576500818496
 30
0.0
 11
388.8193097352614
 21
816.039047914225
 31
0.0
  0
LINE
  8
ITEM_50
  5
270
 10
388.8193097352614
 20
816.039047914225
 30
0.0
 11
389.8193097352614
 21
816.039047914225
 31
0.0
  0
LINE
  8
ITEM_50
  5
271
 10
367.2414603034033
 20
855.410684258742
 30
0.0
 11
342.2030473326897
 21
855.410684258742
 31
0.0
  0
LINE
  8
ITEM_50
  5
276
 10
389.8193097352614
 20
843.4576500818496
 30
0.0
 11
389.8193097352614
 21
816.039047914225
 31
0.0
  0
LINE
  8
ITEM_50
  5
27B
 10
354.797673567902
 20
854.410684258742
 30
0.0
 11
354.797673567902
 21
855.410684258742
 31
0.0
  0
LINE
  8
ITEM_50
  5
27C
 10
359.797673567902
 20
854.410684258742
 30
0.0
 11
359.797673567902
 21
855.410684258742
 31
0.0
  0
LINE
  8
ITEM_50
  5
27D
 10
388.8193097352613
 20
839.0199406592747
 30
0.0
 11
389.8193097352614
 21
839.0199406592747
 31
0.0
  0
LINE
  8
ITEM_50
  5
27E
 10
388.8193097352614
 20
835.1530359034435
 30
0.0
 11
389.8193097352614
 21
835.1530359034436
 31
0.0
  0
POINT
  8
ITEM_HILFE
  5
27F
 10
320.6251979008316
 20
843.4576500818496
 30
0.0
  0
POINT
  8
ITEM_HILFE
  5
280
 10
320.6251979008316
 20
816.039047914225
 30
0.0
  0
LINE
  8
ITEM_50
  5
281
 10
319.6251979008316
 20
843.4576500818496
 30
0.0
 11
319.6251979008316
 21
816.039047914225
 31
0.0
  0
LINE
  8
ITEM_50
  5
282
 10
320.6251979008316
 20
843.4576500818496
 30
0.0
 11
320.6251979008316
 21
816.039047914225
 31
0.0
  0
LINE
  8
ITEM_50
  5
283
 10
320.6251979008316
 20
816.039047914225
 30
0.0
 11
319.6251979008316
 21
816.039047914225
 31
0.0
  0
LINE
  8
ITEM_50
  5
284
 10
319.6251979008316
 20
843.4576500818496
 30
0.0
 11
320.6251979008316
 21
843.4576500818496
 31
0.0
  0
POINT
  8
ITEM_HILFE
  5
285
 10
367.2414603034033
 20
805.0860137373326
 30
0.0
  0
POINT
  8
ITEM_HILFE
  5
286
 10
342.2030473326897
 20
805.0860137373326
 30
0.0
  0
LINE
  8
ITEM_50
  5
287
 10
367.2414603034033
 20
804.0860137373326
 30
0.0
 11
342.2030473326897
 21
804.0860137373326
 31
0.0
  0
LINE
  8
ITEM_50
  5
288
 10
367.2414603034033
 20
805.0860137373326
 30
0.0
 11
342.2030473326897
 21
805.0860137373326
 31
0.0
  0
LINE
  8
ITEM_HILFE
  5
289
 10
355.5811716329487
 20
804.912596703763
 30
0.0
 11
355.5811716329487
 21
804.1759534235274
 31
0.0
  0
LINE
  8
ITEM_50
  5
28A
 10
342.2030473326897
 20
805.0860137373326
 30
0.0
 11
342.2030473326897
 21
804.0860137373326
 31
0.0
  0
LINE
  8
ITEM_50
  5
28B
 10
346.7422592246037
 20
805.0860137373326
 30
0.0
 11
346.7422592246037
 21
804.0860137373326
 31
0.0
  0
LINE
  8
ITEM_50
  5
28C
 10
350.6091639804351
 20
805.0860137373326
 30
0.0
 11
350.6091639804351
 21
804.0860137373326
 31
0.0
  0
LINE
  8
ITEM_50
  5
28D
 10
367.2414603034033
 20
804.0860137373326
 30
0.0
 11
367.2414603034033
 21
805.0860137373326
 31
0.0
  0
POINT
  8
ITEM_HILFE
  5
295
 10
357.297673567902
 20
816.0390479142251
 30
0.0
  0
POINT
  8
ITEM_HILFE
  5
296
 10
357.297673567902
 20
817.8381194447877
 30
0.0
  0
POINT
  8
ITEM_HILFE
  5
299
 10
349.783669209637
 20
835.9785306742418
 30
0.0
  0
POINT
  8
ITEM_HILFE
  5
29A
 10
348.5100261775702
 20
837.2521737063084
 30
0.0
  0
ENDSEC
  0
EOF
